Sanatçının Şarkıları

    İçerik akorların, tabların, bas tablarının ve sözlerin ayırt edilebilmesi için seçimlerinize göre renkli listelenmektedir.
Doğru Yanlış 0 puan Repertuarıma Ekle Dur Kaydır Kaydır yeni Akor Tab Söz Bas

Gasoline

Akor
%0
Tab
%0
Söz
%0
Bas
%0
Audioslave: 3. Gasoline
tabbed by thedarkwinbass@yahoo.com
music by tom morello

Low B Tunning: tune down E a step and half.
from low to high B A D G B e

intro: light distortion
e|-----------------------------------------------------------------------
B|-----------------------------------------------------------------------
G|-----------------------------------------------------------------------
D|-----------------------------------------------------------------------
A|-----------------------------------------------------------------------
B|--12\0--0-3h5--0-10h12-12\0--0-3h5--0-10h12-12\0--0-3h5--0-10h12-12\0--

e|-------------------
B|-------------------
G|-------------------
D|-------------------
A|-------------------
B|--5-5-3-5-3-0--12--  then heavy up distorion or volume
                       when drums and bass come in.
e|---------------------------------------------------------------------------------|
B|---------------------------------------------------------------------------------|
G|---------------------------------------------------------------------------------|
D|----------------------------------------------------------------------------(4)--|
A|-----------------------------------------------------------------------------2---|
B|--0--0-3h5--0-10h12-12\--3-3h5--0-10h12-12\--3-3h5--0-10h12-12\--5-5-3-5-3-0-0---|

verse: light distortion w/ tremelo
e|----------------------------------------------------------
B|----------------5--4--------------------------------5--4--
G|----------------------------------------------------------
D|--4--------4---------------------------2--2----2----------
A|--2--------2----------play a couple----0--0----0----------
B|---------------------times, then play---------------------

then finish verse w/ this
e|----------------|
B|----------------|
G|----------------|
D|--4--4--4-------|
A|--2--2--2-------|
B|-----------12\--|

chorus:
e|-------------------------------------------------------------------------------------
B|-------------------------------------------------------------------------------------
G|-------------------------------------------------------------------------------------
D|-------------------------------------------------------------------------------------
A|-------------------------------------------------------------------------------------
B|--0--0-3h5--0-10h12-12\--3-3h5--0-10h12-12\--3-3h5--0-10h12-12\--3-3h5--0-10h12-12\--

e|----------------------------------------------------------------------------
B|----------------------------------------------------------------------------
G|----------------------------------------------------------------------------
D|----------------------------------------------------------------------------
A|-----------------------------------5-2-0----0h2--------------5-2-0----0h2---
B|--0--0-3h5--0-10h12-12\0--0-3h5--0-------3-------0--0-3h5--0-------3--------

e|------------------------------------------|
B|------------------------------------------|
G|------------------------------------------|
D|-------------------------------------(4)--|
A|------------5-2-0----0h2--------------2---|
B|0--0-3h5--0-------3-------5-5-3-5-3-0-0---|
                           \-------------/
                       ending changes in 2nd chorus

another verse and chorus, w/ different ending chorus
e|-------------------------------|
B|-------------------------------|
G|-------------------------------|
D|--------------------------(4)--|
A|---------------------------2---|
B|--10h12--10--7--5--3b--3b--0---|

interlude before solo: w/ light distorition
e|----------------------------|
B|--0---0--3h5--0--10h12--12--|
G|----------------------------|
D|----------------------------|
A|----------------------------|
B|----------------------------|

solo: w/ whammy pedal set down an octave
e|------------------------------------------------------------------
B|------------------------------------------------------------------
G|--------------7------------7------------------7------------7------
D|--7h9-7-9p7-9---9----9p7-9---9-7--7h9-7-9p7-9---9----9p7-9---9-7--
A|------------------------------------------------------------------
B|------------------------------------------------------------------

e|----------------------------------------------------------------------|
B|----------------------------------------------------------------------|
G|--------------7------------7------------------------------------------|
D|--7h9-7-9p7-9---9----9p7-9---9-7--9b--9-7--9b--9-7--9b--9-7--9b--9-7--|
A|----------------------------------------------------------------------|
B|----------------------------------------------------------------------|2x
                                    *1/2 bend then release

e|--------------------------------------|
B|--------------------------------------|
G|--------------------------------------|
D|--9b--9-7--9b--9-7--9b--9-7--9b--9-7--|repeat numerous times starting
A|--------------------------------------|off at soft volume then increase
B|--------------------------------------|towards the end to chorus

play chorus w/ alternate ending
then play outro:
e|-------------------------------------------------------|
B|-------------------------------------------------------|
G|-------------------------------------------------------|
D|--------------------------------------------------(4)--|
A|---------------------------------------------------2---|
B|---0--0-3h5--0-10h12-12\--10h12--10--7--5--3b--3b--0---|2x


That's it....any comments, suggestions, corrections, or further info

Doğru Yanlış Repertuarıma Ekle Kaydır Kaydır Dur yeni Akor Tab Söz Bas  

Akorist gelen istekler doğrultusunda geliştirilecek! Sizde katkıda bulunmak ister misiniz?

Değerli arkadaşlar,

Sizlerden gelen yorum ve e-postaları ilk günden beri takip etmekteyiz. Nefis fikirleriniz için teşekkür ederiz. Bunların bir kısmını hayata geçirmeyi ve Akorist'i daha kullanıcı dostu bir site haline getirmeyi planlıyoruz.

Özellikle sıkça gelen nota isteklerini karşılamak için bize notaların matematiğini anlatabilecek arkadaşlar arıyoruz. Uzman olmanızı beklemiyoruz, zaten Akorist gönüllüler ile ayakta duran bir proje. İlgilenen arkadaşlar akorist.com@gmail.com adresine e-posta atarlarsa mutlu oluruz.

Akorist.com

İnternete sansür değil, sürat lazım!

Yorumlar

Henüz bir yorum yapılmamış.

Yorum Yap

Kaynak: www.zoque.net YORUM YAZMADAN ÖNCE:
Türkçe yazanlar için hatırlatmalar; cümle büyük harfle başlar, nokta ile biter. Noktadan sonra boşluk bırakılır, yeni cümle başlar. "gelcem, gitcem, gidiyom" denmez "geleceğim, gideceğim, gidiyorum" denir. "Herkez" denmez "herkes" denir. "Yaaaa" çok laubali bir sözdür. "bU şEkiLDE" yazmak sadece okuyanı yorar. "Yanlız" değil "Yalnız" denir. "ğ" harfi "g" şeklinde yazılamaz. "Bende, sende" denmez, "Ben de, sen de" denir. "Dahi" anlamındaki "de" ayrı yazılır. "Geldimi?" yazılmaz "Geldi mi?" yazılır. Soru takıları ayrı yazılır. "OKmi?" değil, "Tamam mı?" denir. "ahmet, belgin, duru" denmez. "Ahmet, Belgin, Duru" denir. Özel isimlerin, illerin, ülkelerin ilk harfleri büyük yazılır. "ki" eki, bağlaç olarak kullanılıyorsa ayrı, iyelik eki olarak kullanıyorsa birleşik yazılır. "v" yerine "w" yazılmaz. Yani Türkçe, Türkçe yazılır. MSN Türkçesi'yle değil. MSN türkçesi ile yazılan yorumlar silinecektir.
AYRICA:
Burada küfür etmek kimseye bir şey katmaz. Burada bize teşekkür etmenize gerek yok, lütfen sadece alakalı ve seviyeli yorum yapın. Aşağıdaki editör kendinizi en iyi biçimde ifade etmeniz için konmuştur. Arka plan renginde ya da yazı renginde yapacağınız değişiklikler yorumunuzu okunamaz hale getirebilir, lütfen dikkat edelim. "Güzel", "Bu şarkıyı seviyorum" tarzı yorumlar lütfen yapmayalım. Aşkınızı burada ilan etmeyin. Sanatçılar hakkında bilgi girmek için sitemizin ArWiki özelliğini kullanın. Site ile ilgili görüşlerinizi, isteklerinizi iletisim@akorist.com adresine yollayın. Burada konuşulan müzik olsun. Bol Keyifler..
Sadece üyeler yorum yapabilir.
 
Güvenlik kodunu okuyamıyorum
Blog